Jan Hilado with Bo SanchezBo Sanchez presents the CEBU INTERNET MARKETING WORKSHOP (Hands-on training on how to Make Money Online)
For more details of the workshop, CLICK HERE!

Sunday, August 24, 2008

Techno Christmas 2008

*Start Copy Here*


You do not have to be tagged to play along. This game is simple and so here are the rules.

1. Copy from "START COPY HERE" to "STOP COPY HERE".

2. Add your site(s) to the list. Just be sure to post the "Techno Christmas 2008" at each site you add.

3. You have a choice to tag or not to tag, however, the more tags you create the longer the list will grow.

4. Let me know your blog’s name and url by leaving a comment HERE, so I can add you to the master list.

5. Come back and copy the master list back to your site, often as you can. This will allow the new comers to achieve equal benefit as the late comers do.

6. Watch your Authority Rise

7. You may want to grab the Techno Christmas Badge




Please follow the rules. Blogs in the list will be subject to removal if their lists are not updated. I will check all of the blogs once a week.

Techno Christmas 2008 Masterlist:

1. 2. 3. 4. Pinay Mommy Online 5. Blessings and Beyond 6. Mommy Earns Money 7. OnlineBiz and Resources 8. Lourdes' Mia 9. Digital Life Scraps 10. Pexlinks Triple Love 11. Pinay Mommies Community 12. Deranged Insanity 13. Traipsey Turvey 14. PierrEzarh 15. Dancing in Midlife Tune 16. Life is What we Make it 17. Picture Clusters 18. My Wanderings 19. Maiylah’s Snippets 20. Moments of Colours 21. MBA On Line 22. Mom of 2 Dancers 23. Wonderful Things In Life 24. The Fountain Of Happiness 25. A message From My Heart 26. My Life's Adventure 27. Photographic Memories 28. Love Is... 29. The Joy Of Life Forever 29.In My Dreams 30. I love nice 31. My Resting Place 32.You In My Heart 33. Life's All About 34 35. Gala Tayo! 36. Buhay Pinoy~Making Money 37. Hesitant Wife's Blog 38. PTC100 39. My Little Home 41. All Because Two People Fell in LOVE 42. Come, Let's Talk 43. Three P's in a Pod 44. 3P's In a Pod 45. Ivory Task 46. I Play Mom 47. Site Hopper 48. Health Zap 49. My Life's Journey in Italy 50. Sharing my Thoughts 51. Brown Pinay 52.Webby Contest 53. Life’s Sweets and Spices 54. Little Zoie’s Steps 55. La Bubbly Chica 56. A Stellar Life 57. Best Pinay Mom 58. Happy Healthy Families 59. My Blogging Experience 60. TIKLATON 61. Straight from the Heart 62. Welcome To My World 63. Pheandy's Blog 64. Musiqcentral 65. Day to Day Miracles 66. Lalaine's World 67. DEBORAH KATY´S BLOG 68. Psycha 69. Survivor Mom 70. when Mom talks...no more problem 71. Iris likes... 72. The Ultra Life of Student Nurses 73. Rock Bands Today 74. Inspired Living Quotes 75. My Adventure Times 76. Young Adult Millionaires 76. My Choice Our Music 78. Janmck's Blog Haven 79. Etc-Atbp 80. iCreate+iDeas 81. My Healthy Living Journal 82. Busy Mom Cooks 83. Christian Weekends 84. Bogie's Wonderland 85. Life and Me 86. MommaWannabe 87. Xploring Asia 88. Heap Up 89. iCreate+iDeas 90. My Healthy Living Journal 91. Busy Mom Cooks 92. Christian Weekends 93. Bogie’s Wonderland 94. iCreate+iDeas 95. Contests and Memes 96. Vsk8shop 97. Just the tip of the Iceberg 98. Honeysweet Learning Center 99. VDAY Cagayan de Oro City 100. My Life, My Family 101. Charmdestiny 102. your blog next.....




* STOP COPY HERE *

Sunday, August 3, 2008

Table of Contents:

1. Lead vs. Rhythm
2. Learning the first position
3. How to press down strings

Lead Vs. Rhythm

What do the terms lead guitar and rhythm guitar mean?
Lead guitar and rhythm guitar simply refer to two different ways the guitar can be played used in the context of a band. They have nothing to do with types of guitars; they only refer to various styles of guitar playing. In a band with two guitarists, the rhythm guitarist is the one who plays the "structure" of the song; he/she plays the chords that backup the vocals and help create the overall feel of the song. As the name suggests, rhythm is especially important for a rhythm guitarist, as creating a strong structure for a song performed by a band relies heavily on having a great rhythm that is infectious with listeners while also allowing fellow bandmates to easily build upon it.

Because of their role in contributing to the structure of the song, rhythm guitarists are typically at the core of the given band's songwriting process. In a band where the lead singer also serves as a guitarist, he/she is almost invariably serving as the rhythm guitarist, as the rhythm guitar will serve to support his/her vocals. The same is true for singer/songwriters, as they must essentially play a rhythm guitar style to accompany their vocals.


Lead Guitar.
Lead guitarists are the more glamorous and "rock star" type, as they are characterized by their mastery of the fretboard. Lead guitarists add solos to songs, and often use the structure provided by the rhythm guitarist's work as a foundation for their improvisation. While their work is often more impressive and glamorous, they generally cannot stand alone and need the structure created by the other members of their band in order to offer their greatest contribution.

To summarize, the work of rhythm guitarists is most commonly characterized by chords, while lead guitarists incorporate more single-string playing and soloing.

Becoming The Total Package.
Of course, the best guitarists are those who can play both roles. When a guitarist has a mastery of both lead and rhythm, he/she can be both an infectious and harmonious songwriter and a uniquely rhythmic virtuoso.

Learn more at http://www.ultimate-guitar.com/

Wednesday, July 30, 2008

BOSTON by AUGUSTANA PIANO LESSONS!



BOSTON by AUGUSTANA PIANO LESSONS!

It Ends Tonight Piano Lesson



IT ENDS TONIGHT PIANO LESSONS!!! very easy to imitate! hehe!

Saturday, July 19, 2008

video
Weak by Jojo Guitar! Learn easily from these clear videos! its So easy!

Thursday, July 10, 2008

How to play MYMP's version of No Ordinary lOve


video

Intro:

e|--5----5------|--5----------|-----|
B|-----3-----3--|-------3--t--|--3--|
G|--------------|----------a--|--4--|
D|--0------0----|--4--4----p--|-----|
A|--------------|-------------|-----|
E|--------------|-------------|--3--|

verse:

e|-----------0-----------------|--------------0-----------|
B|-------3----------3----------|-----------3-------3------|
G|-----2----------------2------|--------2-------------2---|
D|--0-----------0--------------|-----4-----------4--------|
A|-----------------------------|--------------------------|
E|-----------------------------|--------------------------|

e|---------2-------0----------------------------|
B|-------3------3-------------------------------|
G|-----4-----4----------------------------------|
D|---5------------------------------------------|
A|----------------------------------------------|
E|----------------------------------------------|

refrain:

e|--------2------*-----------------2----|
B|------2---2----*------------3-------3-|
G|----3------3---*---------4------------|
D|---------------*------4---------------|
A|--1------------*--2------------2------|
E|---------------*----------------------|
I was alone on this journey


e|-----------3------*---------0--|
B|--------3-------3-*--3---------|
G|-----0------------*------------|
D|------------------*------------|
A|------------------*------------|
E|--3----------3----*--2---------|

e|----------0-----------------0--*--------------------------------|
B|--------3---3-----------3------*---------3----------3-------3---|
G|------0-------0-------0--------*------2----2------------2-------|
D|----2-----------2---2----------*---2------------------2---------|
A|-------------------------------*-0--------------0---0-----0-----|
E|--0---------------0-------0----*--------------------------------|

chorus:


e|---------------0------|------------------|
B|----------3-----------|--3---------3-----|
G|------2---------------|-------2----------|
D|-0--------------------|-----0------------|
A|----------------------|------------------|
E|----------------------|--2-------2-------|

e|--------------------------0--------------|
B|------3-------2---------2------3---------|
G|----0---3---2---2-----3----------2-------|
D|--------------------0--------0-----------|
A|----------0------------------------------|
E|--3--------------------------------------|

e|------------------------------2--|
B|------3-------2-----------3------|
G|----0--3----2-----------4--------|
D|----------------------4----------|
A|----------0-----(0)-2-------2----|
E|--3------------------------------|

e|-----------0-|---------------|
B|-3-----------|-3-------3-----|
G|----0--------|---2-----------|
D|-------------|---------------|
A|-------------|-0-----0-------|
E|-3-----3-----|---------------|

bridge:

e|------------3---|------------3---|--------0-----|--------0------|
B|--------3-----3-|--------3-----3-|------3-----3-|------3-----3--|
G|------0---------|------0---------|----2---------|----2----------|
D|----2-----------|----2-----------|--0-----------|--0------------|
A|--3-------3-----|--3-------3-----|--------------|---------------|
E|----------------|----------------|--------------|---------------|

Technorati Fave

Add to Technorati Favorites